Gramy i akordy na bas

C-dur

Gama C-durr



G----------------------|-------2----4----5----|--4----2--------------|
D------------2----3----|--5-------------------|------------5----3----|
A--3----5--------------|----------------------|----------------------|
E----------------------|----------------------|----------------------|

C-dur
Gama C-durr

G----------------------|-------2----4----5----|--4----2--------------|
D------------2----3----|--5-------------------|------------5----3----|
A--3----5--------------|----------------------|----------------------|
E----------------------|----------------------|----------------------|


G----------------------|------------0----x----|--0-|
D--2-------------------|-------2--------------|--2-|
A-------5----3----x----|--3-------------------|--3-|
E----------------------|----------------------|----|

Akord C-dur
G|--0-|
D|--2-|
A|--3-|
E|----|

Niżej akordy będą zapisywane na końcu schematu ( tak jak wyżej:D )

a-moll


G----------------------|-----------------2----|----------------------|
D----------------------|--2----3----5---------|--5----3----2---------|
A-------2----3----5----|----------------------|-----------------5----|
E--5-------------------|----------------------|----------------------|


G----------------------|-----------------x----|----|
D----------------------|------------2---------|--2-|
A--3----2--------------|-------3--------------|--3-|
E------------5----x----|--5-------------------|--5-|

G-dur

G----------------------|----------------------|----------------------|
D----------------------|-------2----4----5----|--4----2--------------|
A------------2----3----|--5-------------------|------------5----3----|
E--3----5--------------|----------------------|----------------------|


G----------------------|-----------------x----|----|
D----------------------|------------0---------|--0-|
A--2-------------------|-------2--------------|--2-|
E-------5----3----x----|--3-------------------|--3-|

e-moll

G----------------------|----------------------|----------------------|
D----------------------|------------0----2----|--0-------------------|
A-----------------0----|--2----3--------------|-------3----2----0----|
E--0----2----3---------|----------------------|----------------------|


G----------------------|------------4----x----|--4-|
D----------------------|-------5--------------|--5-|
A----------------------|--7-------------------|--7-|
E--3----2----0----x----|----------------------|----|

D-dur

G----------------------|-------4----6----7----|--6----4--------------|
D------------4----5----|--7-------------------|------------7----5----|
A--5----7--------------|----------------------|----------------------|
E----------------------|----------------------|----------------------|


G----------------------|------------2----x----|--2-|
D--4-------------------|-------4--------------|--4-|
A-------7----5----x----|--5-------------------|--5-|
E----------------------|----------------------|----|

h-moll

G----------------------|------------2----4----|--2-------------------|
D-----------------2----|--4----5--------------|-------5----4----2----|
A--2----4----5---------|----------------------|----------------------|
E----------------------|----------------------|----------------------|


G----------------------|-----------------x----|----|
D----------------------|------------4---------|--4-|
A--5----4----2---------|-------5--------------|--5-|
E-----------------x----|--7-------------------|--7-|

F-dur

G----------------------|----------------------|----------------------|
D----------------------|-------0----2----3----|--2----0--------------|
A------------0----1----|--3-------------------|------------3----1----|
E--1----3--------------|----------------------|----------------------|


G----------------------|------------5----x----|--5-|
D----------------------|-------7--------------|--7-|
A--0-------------------|--8-------------------|--8-|
E-------3----1----x----|----------------------|----|

d-moll

G----------------------|------------5----7----|--5-------------------|
D-----------------5----|--7----8--------------|-------8----7----5----|
A--5----7----8---------|----------------------|----------------------|
E----------------------|----------------------|----------------------|


G----------------------|------------2----x----|--2-|
D----------------------|-------3--------------|--3-|
A--8----7----5----x----|--5-------------------|--5-|
E----------------------|----------------------|----|

B-dur

G----------------------|-------0----2----3----|--2----0--------------|
D------------0----1----|--3-------------------|------------3----1----|
A--1----3--------------|----------------------|----------------------|
E----------------------|----------------------|----------------------|


G----------------------|-----------------x----|----|
D--0-------------------|------------3---------|--3-|
A-------3----1----x----|-------5--------------|--5-|
E----------------------|--6-------------------|--6-|

g-moll

G----------------------|----------------------|----------------------|
D----------------------|------------3----5----|--3-------------------|
A-----------------3----|--5----6--------------|-------6----5----3----|
E--3----5----6---------|----------------------|----------------------|


G----------------------|----------------------|----|
D----------------------|------------0----x----|--0-|
A----------------------|-------1--------------|--1-|
E--6----5----3----x----|--3-------------------|--3-|

A-dur

G----------------------|------------1----2----|--1-------------------|
D-----------------0----|--2----4--------------|-------4----2----0----|
A--0----2----4---------|----------------------|----------------------|
E----------------------|----------------------|----------------------|


G----------------------|----------------------|----|
D----------------------|------------2----x----|--2-|
A--4----2----0---------|-------4--------------|--4-|
E-----------------x----|--5-------------------|--5-|

fis-moll

G----------------------|----------------------|----------------------|
D----------------------|-------0----2----4----|--2----0--------------|
A------------0----2----|--4-------------------|------------4----2----|
E--2----4--------------|----------------------|----------------------|


G----------------------|------------6----x----|--6-|
D----------------------|-------7--------------|--7-|
A--0-------------------|--9-------------------|--9-|
E-------4----2----x----|----------------------|----|

Es-dur

G----------------------|-------5----7----8----|--7----5--------------|
D------------5----6----|--8-------------------|------------8----6----|
A--6----8--------------|----------------------|----------------------|
E----------------------|----------------------|----------------------|


G----------------------|------------3----x----|--3-|
D--5-------------------|-------5--------------|--5-|
A-------8----6----x----|--6-------------------|--6-|
E----------------------|----------------------|----|

c-moll

G----------------------|------------3----5----|--3-------------------|
D-----------------3----|--5----6--------------|-------6----5----3----|
A--3----5----6---------|----------------------|----------------------|
E----------------------|----------------------|----------------------|


G----------------------|------------0----x----|--0-|
D----------------------|-------1--------------|--1-|
A--6----5----3----x----|--3-------------------|--3-|
E----------------------|----------------------|----|

As-dur

G----------------------|----------------------|----------------------|
D----------------------|-------3----5----6----|--5----3--------------|
A------------3----4----|--6-------------------|------------6----4----|
E--4----6--------------|----------------------|----------------------|


G----------------------|----------------------|----|
D----------------------|------------1----x----|--1-|
A--3-------------------|-------3--------------|--3-|
E-------6----4----x----|--4-------------------|--4-|

f-moll

G----------------------|----------------------|----------------------|
D----------------------|------------1----3----|--1-------------------|
A-----------------1----|--3----4--------------|-------4----3----1----|
E--1----3----4---------|----------------------|----------------------|


G----------------------|------------5----x----|--5-|
D----------------------|-------6--------------|--6-|
A----------------------|--8-------------------|--8-|
E--4----3----1----x----|----------------------|----|

E-dur

G----------------------|----------------------|----------------------|
D----------------------|------------1----2----|--1-------------------|
A-----------------0----|--2----4--------------|-------4----2----0----|
E--0----2----4---------|----------------------|----------------------|


G----------------------|------------4----x----|--4-|
D----------------------|-------6--------------|--6-|
A----------------------|--7-------------------|--7-|
E--4----2----0----x----|----------------------|----|

cis-moll

G----------------------|------------4----6----|--4-------------------|
D-----------------4----|--6----7--------------|-------7----6----4----|
A--4----6----7---------|----------------------|----------------------|
E----------------------|----------------------|----------------------|


G----------------------|------------1----x----|--1-||
D----------------------|-------2--------------|--2-||
A--7----6----4----x----|--4-------------------|--4-||
E----------------------|----------------------|----||

Załączniki

-

Jak Ty oceniasz wpis?

Wiesz po co są te ikonki?

Wpisy są prywatnymi opiniami poszczególnych autorów.
Napisz odpowiedź